ISO-10303-21;
HEADER;
/* Generated by software containing ST-Developer
 * from STEP Tools, Inc. (www.steptools.com) 
 */

FILE_DESCRIPTION(
/* description */ (''),
/* implementation_level */ '2;1');

FILE_NAME(
/* name */ 
'D:/Gmsh/tutorials/try model from FEATool/cylinder-split-F360 v1.step',

/* time_stamp */ '2020-05-08T22:38:18-05:00',
/* author */ (''),
/* organization */ (''),
/* preprocessor_version */ 'ST-DEVELOPER v18.1',
/* originating_system */ 'Autodesk Translation Framework v9.2.0.1227',
/* authorisation */ '');

FILE_SCHEMA (('AUTOMOTIVE_DESIGN { 1 0 10303 214 3 1 1 }'));
ENDSEC;

DATA;
#10=MECHANICAL_DESIGN_GEOMETRIC_PRESENTATION_REPRESENTATION('',(#13,#14),
#160);
#11=SHAPE_REPRESENTATION_RELATIONSHIP('SRR','None',#167,#12);
#12=ADVANCED_BREP_SHAPE_REPRESENTATION('',(#15,#16),#159);
#13=STYLED_ITEM('',(#176),#15);
#14=STYLED_ITEM('',(#176),#16);
#15=MANIFOLD_SOLID_BREP('Body1',#81);
#16=MANIFOLD_SOLID_BREP('Body2',#82);
#17=LINE('',#145,#19);
#18=LINE('',#155,#20);
#19=VECTOR('',#120,0.249999999999867);
#20=VECTOR('',#133,0.249999999999867);
#21=CYLINDRICAL_SURFACE('',#99,0.249999999999867);
#22=CYLINDRICAL_SURFACE('',#104,0.249999999999867);
#23=FACE_OUTER_BOUND('',#29,.T.);
#24=FACE_OUTER_BOUND('',#30,.T.);
#25=FACE_OUTER_BOUND('',#31,.T.);
#26=FACE_OUTER_BOUND('',#32,.T.);
#27=FACE_OUTER_BOUND('',#33,.T.);
#28=FACE_OUTER_BOUND('',#34,.T.);
#29=EDGE_LOOP('',(#55,#56));
#30=EDGE_LOOP('',(#57,#58,#59,#60,#61));
#31=EDGE_LOOP('',(#62));
#32=EDGE_LOOP('',(#63));
#33=EDGE_LOOP('',(#64,#65,#66,#67,#68));
#34=EDGE_LOOP('',(#69,#70));
#35=CIRCLE('',#97,0.249999999999934);
#36=CIRCLE('',#98,0.249999999999934);
#37=CIRCLE('',#100,0.249999999999867);
#38=CIRCLE('',#103,0.249999999999867);
#39=CIRCLE('',#105,0.249999999999934);
#40=CIRCLE('',#106,0.249999999999934);
#41=VERTEX_POINT('',#138);
#42=VERTEX_POINT('',#139);
#43=VERTEX_POINT('',#143);
#44=VERTEX_POINT('',#148);
#45=VERTEX_POINT('',#151);
#46=VERTEX_POINT('',#152);
#47=EDGE_CURVE('',#41,#42,#35,.T.);
#48=EDGE_CURVE('',#42,#41,#36,.T.);
#49=EDGE_CURVE('',#43,#43,#37,.T.);
#50=EDGE_CURVE('',#43,#42,#17,.T.);
#51=EDGE_CURVE('',#44,#44,#38,.T.);
#52=EDGE_CURVE('',#45,#46,#39,.T.);
#53=EDGE_CURVE('',#46,#45,#40,.T.);
#54=EDGE_CURVE('',#46,#44,#18,.T.);
#55=ORIENTED_EDGE('',*,*,#47,.F.);
#56=ORIENTED_EDGE('',*,*,#48,.F.);
#57=ORIENTED_EDGE('',*,*,#49,.F.);
#58=ORIENTED_EDGE('',*,*,#50,.T.);
#59=ORIENTED_EDGE('',*,*,#48,.T.);
#60=ORIENTED_EDGE('',*,*,#47,.T.);
#61=ORIENTED_EDGE('',*,*,#50,.F.);
#62=ORIENTED_EDGE('',*,*,#49,.T.);
#63=ORIENTED_EDGE('',*,*,#51,.F.);
#64=ORIENTED_EDGE('',*,*,#52,.F.);
#65=ORIENTED_EDGE('',*,*,#53,.F.);
#66=ORIENTED_EDGE('',*,*,#54,.T.);
#67=ORIENTED_EDGE('',*,*,#51,.T.);
#68=ORIENTED_EDGE('',*,*,#54,.F.);
#69=ORIENTED_EDGE('',*,*,#52,.T.);
#70=ORIENTED_EDGE('',*,*,#53,.T.);
#71=PLANE('',#96);
#72=PLANE('',#101);
#73=PLANE('',#102);
#74=PLANE('',#107);
#75=ADVANCED_FACE('',(#23),#71,.T.);
#76=ADVANCED_FACE('',(#24),#21,.T.);
#77=ADVANCED_FACE('',(#25),#72,.T.);
#78=ADVANCED_FACE('',(#26),#73,.F.);
#79=ADVANCED_FACE('',(#27),#22,.T.);
#80=ADVANCED_FACE('',(#28),#74,.F.);
#81=CLOSED_SHELL('',(#75,#76,#77));
#82=CLOSED_SHELL('',(#78,#79,#80));
#83=DERIVED_UNIT_ELEMENT(#85,1.);
#84=DERIVED_UNIT_ELEMENT(#162,3.);
#85=(
MASS_UNIT()
NAMED_UNIT(*)
SI_UNIT(.KILO.,.GRAM.)
);
#86=DERIVED_UNIT((#83,#84));
#87=MEASURE_REPRESENTATION_ITEM('density measure',
POSITIVE_RATIO_MEASURE(7850.),#86);
#88=PROPERTY_DEFINITION_REPRESENTATION(#93,#90);
#89=PROPERTY_DEFINITION_REPRESENTATION(#94,#91);
#90=REPRESENTATION('material name',(#92),#159);
#91=REPRESENTATION('density',(#87),#159);
#92=DESCRIPTIVE_REPRESENTATION_ITEM('Steel','Steel');
#93=PROPERTY_DEFINITION('material property','material name',#169);
#94=PROPERTY_DEFINITION('material property','density of part',#169);
#95=AXIS2_PLACEMENT_3D('placement',#136,#108,#109);
#96=AXIS2_PLACEMENT_3D('',#137,#110,#111);
#97=AXIS2_PLACEMENT_3D('',#140,#112,#113);
#98=AXIS2_PLACEMENT_3D('',#141,#114,#115);
#99=AXIS2_PLACEMENT_3D('',#142,#116,#117);
#100=AXIS2_PLACEMENT_3D('',#144,#118,#119);
#101=AXIS2_PLACEMENT_3D('',#146,#121,#122);
#102=AXIS2_PLACEMENT_3D('',#147,#123,#124);
#103=AXIS2_PLACEMENT_3D('',#149,#125,#126);
#104=AXIS2_PLACEMENT_3D('',#150,#127,#128);
#105=AXIS2_PLACEMENT_3D('',#153,#129,#130);
#106=AXIS2_PLACEMENT_3D('',#154,#131,#132);
#107=AXIS2_PLACEMENT_3D('',#156,#134,#135);
#108=DIRECTION('axis',(0.,0.,1.));
#109=DIRECTION('refdir',(1.,0.,0.));
#110=DIRECTION('center_axis',(-1.,0.,0.));
#111=DIRECTION('ref_axis',(0.,0.,1.));
#112=DIRECTION('center_axis',(1.,0.,0.));
#113=DIRECTION('ref_axis',(0.,-2.65115539114098E-13,1.));
#114=DIRECTION('center_axis',(1.,0.,0.));
#115=DIRECTION('ref_axis',(0.,-2.65115539114098E-13,1.));
#116=DIRECTION('center_axis',(-1.,0.,0.));
#117=DIRECTION('ref_axis',(0.,-0.707106781186548,-0.707106781186548));
#118=DIRECTION('center_axis',(1.,0.,0.));
#119=DIRECTION('ref_axis',(0.,-0.707106781186548,-0.707106781186548));
#120=DIRECTION('',(-1.,0.,0.));
#121=DIRECTION('center_axis',(1.,0.,0.));
#122=DIRECTION('ref_axis',(0.,0.,-1.));
#123=DIRECTION('center_axis',(1.,0.,0.));
#124=DIRECTION('ref_axis',(0.,0.,-1.));
#125=DIRECTION('center_axis',(1.,0.,0.));
#126=DIRECTION('ref_axis',(0.,-0.707106781186548,-0.707106781186548));
#127=DIRECTION('center_axis',(-1.,0.,0.));
#128=DIRECTION('ref_axis',(0.,-0.707106781186548,-0.707106781186548));
#129=DIRECTION('center_axis',(1.,-1.34015774165396E-15,1.34015774165396E-15));
#130=DIRECTION('ref_axis',(-1.11022302462545E-15,-1.,-2.65115539114098E-13));
#131=DIRECTION('center_axis',(1.,-1.34015774165396E-15,1.34015774165396E-15));
#132=DIRECTION('ref_axis',(-1.11022302462545E-15,-1.,-2.65115539114098E-13));
#133=DIRECTION('',(-1.,0.,0.));
#134=DIRECTION('center_axis',(-1.,0.,0.));
#135=DIRECTION('ref_axis',(0.,0.,1.));
#136=CARTESIAN_POINT('',(0.,0.,0.));
#137=CARTESIAN_POINT('Origin',(0.,-0.25,0.));
#138=CARTESIAN_POINT('',(0.,0.,0.25));
#139=CARTESIAN_POINT('',(0.,0.176776695296429,0.176776695296429));
#140=CARTESIAN_POINT('Origin',(0.,6.6266436782314E-14,6.6215766263948E-14));
#141=CARTESIAN_POINT('Origin',(0.,6.6266436782314E-14,6.6215766263948E-14));
#142=CARTESIAN_POINT('Origin',(1.,-1.13520304267922E-13,-1.13520304267922E-13));
#143=CARTESIAN_POINT('',(0.5,0.176776695296429,0.176776695296429));
#144=CARTESIAN_POINT('Origin',(0.5,-1.13520304267922E-13,-1.13520304267922E-13));
#145=CARTESIAN_POINT('',(1.,0.176776695296429,0.176776695296429));
#146=CARTESIAN_POINT('Origin',(0.5,0.5,6.62490895475543E-14));
#147=CARTESIAN_POINT('Origin',(0.5,0.5,6.62490895475543E-14));
#148=CARTESIAN_POINT('',(0.5,0.176776695296429,0.176776695296429));
#149=CARTESIAN_POINT('Origin',(0.5,-1.13520304267922E-13,-1.13520304267922E-13));
#150=CARTESIAN_POINT('Origin',(1.,-1.13520304267922E-13,-1.13520304267922E-13));
#151=CARTESIAN_POINT('',(1.,0.,0.25));
#152=CARTESIAN_POINT('',(1.,0.176776695296429,0.176776695296429));
#153=CARTESIAN_POINT('Origin',(1.,-6.6197047843275E-14,6.6266436782314E-14));
#154=CARTESIAN_POINT('Origin',(1.,-6.6197047843275E-14,6.6266436782314E-14));
#155=CARTESIAN_POINT('',(1.,0.176776695296429,0.176776695296429));
#156=CARTESIAN_POINT('Origin',(1.,-0.25,0.));
#157=UNCERTAINTY_MEASURE_WITH_UNIT(LENGTH_MEASURE(0.01),#161,
'DISTANCE_ACCURACY_VALUE',
'Maximum model space distance between geometric entities at asserted c
onnectivities');
#158=UNCERTAINTY_MEASURE_WITH_UNIT(LENGTH_MEASURE(0.01),#161,
'DISTANCE_ACCURACY_VALUE',
'Maximum model space distance between geometric entities at asserted c
onnectivities');
#159=(
GEOMETRIC_REPRESENTATION_CONTEXT(3)
GLOBAL_UNCERTAINTY_ASSIGNED_CONTEXT((#157))
GLOBAL_UNIT_ASSIGNED_CONTEXT((#161,#163,#164))
REPRESENTATION_CONTEXT('','3D')
);
#160=(
GEOMETRIC_REPRESENTATION_CONTEXT(3)
GLOBAL_UNCERTAINTY_ASSIGNED_CONTEXT((#158))
GLOBAL_UNIT_ASSIGNED_CONTEXT((#161,#163,#164))
REPRESENTATION_CONTEXT('','3D')
);
#161=(
LENGTH_UNIT()
NAMED_UNIT(*)
SI_UNIT(.MILLI.,.METRE.)
);
#162=(
LENGTH_UNIT()
NAMED_UNIT(*)
SI_UNIT($,.METRE.)
);
#163=(
NAMED_UNIT(*)
PLANE_ANGLE_UNIT()
SI_UNIT($,.RADIAN.)
);
#164=(
NAMED_UNIT(*)
SI_UNIT($,.STERADIAN.)
SOLID_ANGLE_UNIT()
);
#165=SHAPE_DEFINITION_REPRESENTATION(#166,#167);
#166=PRODUCT_DEFINITION_SHAPE('',$,#169);
#167=SHAPE_REPRESENTATION('',(#95),#159);
#168=PRODUCT_DEFINITION_CONTEXT('part definition',#173,'design');
#169=PRODUCT_DEFINITION('cylinder-split-F360','cylinder-split-F360 v1',
#170,#168);
#170=PRODUCT_DEFINITION_FORMATION('',$,#175);
#171=PRODUCT_RELATED_PRODUCT_CATEGORY('cylinder-split-F360 v1',
'cylinder-split-F360 v1',(#175));
#172=APPLICATION_PROTOCOL_DEFINITION('international standard',
'automotive_design',2009,#173);
#173=APPLICATION_CONTEXT(
'Core Data for Automotive Mechanical Design Process');
#174=PRODUCT_CONTEXT('part definition',#173,'mechanical');
#175=PRODUCT('cylinder-split-F360','cylinder-split-F360 v1',$,(#174));
#176=PRESENTATION_STYLE_ASSIGNMENT((#177));
#177=SURFACE_STYLE_USAGE(.BOTH.,#178);
#178=SURFACE_SIDE_STYLE('',(#179));
#179=SURFACE_STYLE_FILL_AREA(#180);
#180=FILL_AREA_STYLE('Steel - Satin',(#181));
#181=FILL_AREA_STYLE_COLOUR('Steel - Satin',#182);
#182=COLOUR_RGB('Steel - Satin',0.627450980392157,0.627450980392157,0.627450980392157);
ENDSEC;
END-ISO-10303-21;
